Inarticulate Discussion Issue 24

on Monday, 25 March 1996.

 - - - - - - - - - - - - - - - - - - - - - - - - - - - - - - - - - - - - - - - - - - - -
Inarticulate (The Josh Clayton-Felt Internet Mailing List)
Issue: 24
Date: 25.March.1996
Subscribers To Date: 044
- - - - - - - - - - - - - - - - - - - - - - - - - - - - - - - - - - - - - - - - - - - -

------------------------------------------------------------------------------
Topics in this issue:
*Poster anyone??
*JCF/SOF singles
*SOF chords for mailing list
*New dates
------------------------------------------------------------------------------
From: This email address is being protected from spambots. You need JavaScript enabled to view it. (Julie)
Subject: Poster anyone??

Hey Dene and Everyonel!!!
I just had to write in and say how totally incredible Inarticulate N-Boy
is!!!! I have wanted to run away and marry Josh ever since I heard "Three
Strange Days," and I am still ready to ride off into the sunset with him
(although he'll have to hurry, as I'm getting married in May). Anyway, what
really sucks is that our local music store didn't even get any copies of
Josh's new cd!!! CD NOW has it on sale (http://cdnow.com), so I got it
through them. I am in Josh-Heaven!!!!!!! Also, I remember someone on here
mentioning a School of Fish poster in some movie...does anyone know where I
could find an SOF poster????

Julie

------------------------------------------------------------------------------
From: This email address is being protected from spambots. You need JavaScript enabled to view it. (Jonathan Blanks)
Subject: JCF/SOF singles

I loved Inarticulate Nature Boy. I work at a record shop and got it the
day it was released. I've been waiting for a long time for this.
I was wondering if there was any way to get any Josh Clayton-Felt and
School Of Fish CD singles? The only ones I have are 3 Strange Days and
Soon enough. I'm looking for Take Me Anywhere, Window, and all the Wrong
CD single releases. Is there anyway to order them from the record label?
Thanks
PS
F.Y.I.
Paul Westerberg's new album "Eventually" and the Posies "Amazing Disgrace"
will be released Apr 23 and the Cure "Wild Mood Swings" is set for May 7!
Just for anyone who cares.
Jonathan Blanks
This email address is being protected from spambots. You need JavaScript enabled to view it.
------------------------------------------------------------------------------
From: This email address is being protected from spambots. You need JavaScript enabled to view it. (Jonathan Blanks)
Subject: SOF chords for mailing list

Here's some guitar chords I tabbed out for all you SOF fans out there..
Well here's what I got:
---------------------------------------------------------------------------
Rose-Colored Glasses

b=bend
br=bend and release
Intro
e------------------------------------------
B------------------------------------------
G--2b---2b---2b---2b---2b---2b---2b---2b---
D------------------------------------------
A------------------------------------------
E------------------------------------------

FIGURE 1
CHORDS:
A D G A D G
e----------------------------|----------------------------|
B--7br--5--------------------|--7br--5--------------------|
G----------7--6--2--0--------|----------7--6--2--4--6--7--|
D----------------------4--0--|----------------------------|
A----------------------------|----------------------------|
E----------------------------|----------------------------|
REPEAT

Verse:
(just drums and bass, but I'll put in appropriate chords anyway)

A
Everyone is standing 'round waiting for their high
F D
Feel the world turn upside down when you step inside
A
Need a drink of water to keep you standing up
F D
Right now, she means everything and you're not enough

e------------------|
B------------------|
G--2b--2b--2b--2b--|
D------------------|
A------------------|
E------------------|

Verse
(Muffled chords)

A
Now you're here again 'cause it had you convinced
F D
That you were apart of something you haven't found since
A
See her making tracks for somewhere far away
F D
Think that you might join her if she'll let you stay

Chorus
A D G A
Everything looks good and if it don't you twist it right
A D E G A (let ring)
Everything you see you see tonight through rose-colored glasses

Verse:
A
Finally you speak, the truth comes out
F D
Your whole world is inflated cause it's all you think about
A
You can't stop staring you don't want to ask
F D
With everything in common it won't last

Chorus
same as above
G A (GO INTO FIGURE 1 again)
...through rose-colored glasses

Figure leads into bridge/solo

Em G Cadd9
e-------------------------(3)--|
B--7br--5--3--5--3--------(3)--|
G-------------------------(0)--|
D-------------------------(2)--|
A-------------------------(3)--|
E------------------------------|
PLAY 3 TIMES

Then
D (muffled)

then this (with echo effect)
e----------
B----3/----
G----2/----
D----------
A----------
E----------

Verse:
A
Half alive you step inside your helium balloon
F D
It's the only way to rise above the room
A
It's temporary, colors getting soft
F D
The groove goes on forever, only you can get you off

Chorus (different chords)
C F Bb C
And Everything looks good and if it don't you twist it right
C F G D
Everything you see you see tonight Through rose-colored....

A E D A E D
..glasses
e------------------------------|-------------------------|
B--7br--5----------------------|--7br--5-----------------|
G----------7--6--4----2--4--6--|----------7--6--4--6--2--|
D------------------------------|-------------------------|
A------------------------------|-------------------------|
E------------------------------|-------------------------|

REPEAT 5 Times (I think)

Outro (same as intro)

------------------------------------------------------------------------------
Speechless

This isn't exactly what he does but it's the chords that follow along

Basically it's
Verse: D and G
Pre-Chorus: Em and G
Chorus: D and G
Bridge: A and F

examples:

VERSE
D G
I'm flying over the city in a suit and tie....

PRE-CHORUS
Em G
Sometimes I find what I need, sometimes I don't find anything..

Chorus
D G
and now I'm speechless, I am tongue tied.....

Bridge
A F
It's all bottled up inside and I (forget the lyrics)
A F
I can't open my eyes, I'm getting lost in this disguise...

--------------------------------------------------------------------------------
Deep End
Verse chords: Bm (Somewhere in the world it's..) E (3 AM...)
Pre-Chorus Chords: G (i wouldn't wish it on you) Bm(I wouldn't wish it on you
D (but I want to dive) F# (into...)

Chorus Chords: Em (into the deep end, in) G (over my) D (head)

Bridge:B (what was my escape) F#m (all that I have left because)
A (the further you go the deeper it) E (gets...)

Well I hope someone one will get much use of these
Later,
Jonathan Blanks

------------------------------------------------------------------------------
From: This email address is being protected from spambots. You need JavaScript enabled to view it.
Subject: New dates

Hi there,

As most of you are probably aware, Josh is to finish the remainder of the Del Amitri tour as support act. You will find the dates (to the end of April) on the WWW page in the 'Live Dates' section.

Once again, if any of you need an e-mail copy of these dates, please feel free to drop me a line and I will sort that out.

Chris: There's a date in San Diego _and_ L.A. !!!

FYI, I spoke with A&M today and was told that 'the big guys at the top' are eager to push Josh and his records and have _much_ confidence in him which is nice to know, let's hope they really mean it,

Until the next issue, take care,

-Dene
------------------------------------------------------------------------------


Comments (0)

Leave a comment

You are commenting as guest. Optional login below.